Home » , , , » Teknik Senam Jari Untuk Mempercepat Gerakan Jari

Teknik Senam Jari Untuk Mempercepat Gerakan Jari



Bila kita pergi ke konser-konser musik pastilah ada band yang manggung kan disana (hehe). Untuk kita yang ingin bisa bermain gitar pasti akan fokus ke gitaris band. Pada saat gitaris masuk ke bagian melodi bila kita lihat jarinya betapa wow kan gerakan serta kelemasan jari sang gitaris. Keliatannya ribet dan susah yaa... tapi sebenernya mudah kalau kita berusaha dan berlatih.

Kali ini akan saya berikan cara-caranya agar kita mahir memainkan melodi yaitu dengan cara teknik SENAM JARI. Wihh... jari senam? Gimana caranya...



Semak nih caranya ya para kawula muda

1. Posisi Jari

Posisi tangan kiri yang terbaik adalah dengan posisi "one fret per finger", artinya setiap jari (kecuali ibu jari dan jari kaki) menangani/memencet 4 fret masing-masing fret ke-1 hingga ke-4. Jika anda belum tahu apa itu fret. Fret adalah besi-besi yang digunakan untuk memisahkan nada.

Dibawah ini akan saya tunjukan mana yang disebut dengan fret. lihat gambar dibawah
Cara Melatih Kecepatan Jari Tangan Bermain Gitar

Jadi yang dinamakan fret adalah garis-garis besi yang terdapat pada gitar.

2. Teknik Up-down stroke

Dalam memetik senar baik menggunakan pick maupun kuku disarankan memakai metode "Up-down stroke" yaitu memetik kebawah dan keatas bergantian untuk tiap nada. Anda mesti melati teknik ini terus menerus sehingga mencapai kecapatan yang paling maksimal, hingga seolah jari tangan anda tampak bayang-bayangnya saja.

Ada baiknya anda melatih beberapa model petikan. Pertama, setiap petikan untuk satu nada. Kedua, setiap nada dipetik dua kali "naik dan turun". Dan ketiga, tiap kali nada tiga kali petik. Posisi tekan dan urutan tekan jari tangan kiri tetap sama.

Untuk melatih teknik Up-down stroke akan saya berikan contoh latihanya.

  • Metode chord


Agar lebih efisien disarankan melatih jari tangan kiri dengan melodi sebuah chord. Dibawah ini saya berikan Tab untuk latihan dengan metode chord.

e|-----------------------------------------4--5---|
B|-----------------------------------5--7---------|
G|--------------------------4--6--7---------------|
D|-----------------4--6--7------------------------|
A|--------4--5--7---------------------------------|
E|---5-7------------------------------------------|

dan sebaliknya

e|---5--4-----------------------------------------|
B|---------7--5-----------------------------------|
G|---------------7--6--4--------------------------|
D|------------------------7--6--4-----------------|
A|---------------------------------7--5--4--------|
E|------------------------------------------7--5--|

Ada baiknya anda melatih beberapa model petikan. Pertama, setiap petikan untuk satu nada. Kedua, setiap nada dipetik dua kali naik dan turun. Dan ketiga, tiap nada tiga kali petik. Posisi tekan dan urutan tekan jari tangan kiri tetap sama.

Latihlah dengan metode up-down stroke dan one r fret per finger.

Jika anda belum bisa membaca tab, klik disini untuk belajar membaca tab..


  • Metode Kromatik

Kromatik merupakan nada-nada yang berjarak 1/2 nada atau satu kolom/fret dalam gitar. Jadi setiap kolom/fret dibunyikan.

Dibawah ini saya berikan contoh tab metode kromatik.

e|-----------------------------------------1-2-3-4----|
B|---------------------------------1-2-3-4------------|
G|-------------------------1-2-3-4--------------------|
D|-----------------1-2-3-4----------------------------|
A|---------1-2-3-4------------------------------------|
E|-1-2-3-4--------------------------------------------|


  • Metode Trills

Trills adalah teknik dimana dengan sekali petik, kita memperoleh begitu banyak nada yang diinginkan

Contoh : contoh paling mudah adalah dengan dua nada. Posisikan jari telunjuk pada senar ke-1 kolom/fret ke-3, Petiklah senar itu, dan kemudian tanpa memetik lagi, jari tengah anda langsung menekan senar ke-1 di kolom/fret ke-5. Kangkah berikutnya, petik lagi senar 1 dengan jari tengah anda. Jadi , jari telunjuk tetap pada posisinya sementara jari tengah berperan menyembunyikan dua nada, yaitu fret ke-5 dan ke-3.

Di bawah ini adalah tab gitarnya.

e|----3--5-----------|
B|-------------------|
G|-------------------|
D|-------------------|
A|-------------------|
E|-------------------|

Berikut tadi cara melakukan senam jari guys. Lakukan minimal seminggu sekali, atau lebih baik sehari sekali atau 3x sehari agar jari - jari kalian semakin lincah memainkan gitar. DO IT GUYS.

Tambahan tab tab gitar yang bisa kalian coba juga.

E|--------------------------------------------------------| 
B|--------------------------------------------------------| 
G|---------12----------13----------14----------15-----| 
D|------11----------12----------13----------14--------| 
A|---10----------11----------12----------13-----------| 
E|-9----------10----------11----------12--------------| 


E|-9-7-8-6------------------------------------------| 
B|---------8-6-7-5----------------------------------| 
G|-----------------7-5-6-4--------------------------| 
D|-------------------------6-4-5-3------------------| 
A|---------------------------------5-3-4-2----------| 
E|-----------------------------------------4-2-3-1--| 


E|-----------------------------------------6-8-7-9--| 
B|---------------------------------5-7-6-8----------| 
G|-------------------------4-6-5-7------------------| 
D|-----------------3-5-4-6--------------------------| 
A|---------2-4-3-5----------------------------------| 
E|-1-3-2-4------------------------------------------| 


E|-9-7-8-6------------------------------------------| 
B|---------8-6-7-5----------------------------------| 
G|-----------------7-5-6-4--------------------------| 
D|-------------------------6-4-5-3------------------| 
A|---------------------------------5-3-4-2----------| 
E|-----------------------------------------4-2-3-1--|

Masing bingung? Ampun dah nih video guys siapa tau membantu.


Description: Teknik Senam Jari Untuk Mempercepat Gerakan Jari Rating: 4.5 Reviewer: Tito Ramadhan - ItemReviewed: Teknik Senam Jari Untuk Mempercepat Gerakan Jari
Share this article :

Berikan Komentar :)

KET :
1.Jika ingin menyisipkan Gambar <i rel="image">URL Gambar</i>
2.Jika ingin menyisipkan Kode <i rel="pre">Kode Anda</i>
3.jika ingin menyisipkan ,<b>teks tebal</b> <i>teks miring</i>
Note :
Untuk mengetahui balasan dari saya lewat email silahkan klik subcribe by email di bawah ini .Last NO SPAM Live Link
Konversi kode HTMLEmoticonTop Komentator

Back to Top